Все об Emigrate

Информация о пользователе

Привет, Гость! Войдите или зарегистрируйтесь.


Вы здесь » Все об Emigrate » Общение без границ » Музыкантам


Музыкантам

Сообщений 91 страница 118 из 118

91

Der_metzgermeister кинь бас табуллатуру на такие песни как Spring, Adios, Rein Raus

0

92

Der_metzgermeister ты не мог бы выложить свою табулатурку ( ты вродь говорил что у тя есть там парачка идей) нам чисто для развития процесса игры это нужно)

0

93

Ничё что я просто копирую с сайта, табы?

Spring:

Intro at 0:33
F|----------------------------------------------------------------|
C|----------------------------------------------------------------|
G|-5---5---5---5---5---5---5---5---5---5---5---5---5---5---5---5--|
C|----------------------------------------------------------------| x2

F|----------------------------------------------------------------|
C|----------------------------------------------------------------|
G|-3---3---3---3---3---3---3---3---3---3---3---3---3---3---3---3--|
C|----------------------------------------------------------------|

F|----------------------------------------------------------------|
C|----------------------------------------------------------------|
G|-3---5---5---5---5---5---5---5---5---5---5---5---5---5---5---5--|
C|----------------------------------------------------------------|

Chorus A
F|----------------------------------------------------------------|
C|----------------------------------------------------------------|
G|----------------------------------------------------------------|
C|-3---0---0---0---3---0---0---5---3---0---0---0---3---0---0---0--|

Chorus B
F|----------------------------------------------------------------|
C|----------------------------------------------------------------|
G|-3---3---3---3---3---3---3---3---3---2---2---2---2---2---2---2--|
C|----------------------------------------------------------------|

Verse A
F|----------------------------------------------------------------|
C|----------------------------------------------------------------|
G|-----5---5---5---5---5---5---5-------5---5---5---8---5---5---5--|
C|-0-------------------------------0------------------------------|

Verse B
F|----------------------------------------------------------------|
C|----------------------------------------------------------------|
G|-----3---3---3---3---3---3---3---3---3---3---3---3---3---3---3--|
C|-0--------------------------------------------------------------|

Chorus C
F|----------------------------------------------------------------|
C|----------------------------------------------------------------|
G|-3---3---3---3---3---3---3---3---3---3---3---3---3---3---3---3--|
C|----------------------------------------------------------------|

Single note
F|----------------------------------------------------------------|
C|----------------------------------------------------------------|
G|----------------------------------------------------------------|
C|-0--------------------------------------------------------------|

Bridge
F|----------------------------------------------------------------|
C|----------------------------------------------------------------|
G|----------------------------------------------------------------|
C|-8---8---8---8---8---8---8---8---7---7---7---7---7---7---7---7--|

F|----------------------------------------------------------------|
C|----------------------------------------------------------------|
G|---------------------------------0---0---0---0---0---0---0---0--|
C|-5---5---5---5---5---5---5---5----------------------------------|

F|----------------------------------------------------------------|
C|----------------------------------------------------------------|
G|-3---3---3---3---3---3---3---3---3---3---3---3---3---3---3---3--|
C|----------------------------------------------------------------|

Interlude
F|----------------------------------------------------------------|
C|----------------------------------------------------------------|
G|-----------------------------0-------3-------3------------------|
C|-----8-------7-------5-------------------------------0----------|



Adios:

Intro 1 (0:00)

Intro 2: (0:03)
|---|---|---|---|---|---|---|----------------|
|---|---|---|---|---|---|---|--------------3-|
|-R-|-R-|-R-|-R-|-R-|-R-|-R-|R---R---R---3---|
|---|---|---|---|---|---|---|----------------|

Intro 3 (Choruses/solo pt.2): (x4)(0:20)
|----------------|----------------|
|----------------|--------------3-|
|5-55555535555555|3555555555553---|
|----------------|----------------|

Verse 1: (x4)(0:36)
|----------------|----------------|
|----------------|--------------3-|
|5-r-R---R---R---|R---R---R---3---|
|----------------|----------------|

Synth verse:
|----------------|------------------|
|----------------|------------------|
|5-5-5-5-5-5-5-5-|8-8-8-8-8-8-10-10-|
|----------------|------------------|

Chorus 2 (x2)(0:53)

Verse 2: (1:01)
|----------------|----------------|----------------|----------------|
|----------------|--------------3-|----------------|--------------3-|
|5-r-R---R---R---|R---R---R---3---|5-r-R---R---R---|R---R---R---3---|
|----------------|----------------|----------------|----------------|

|----------------|----------------|----------------|----------------|
|----------------|--------------3-|----------------|--------------3-|
|5-r-R---R---R---|R---R---R---3---|5-r-R---5-r-R---|R---R---R---3---|
|----------------|----------------|----------------|----------------|

Chorus 3 (x4)(0:17)
Interlude 1 (rest for eight measures)(1:35)

Interlude 2 (outro): (x2)(1:51)
|----------------|--------------------|------------------------|
|----------------|--------------------|------------------------|
|----------------|8-8-8-8-10-10-10-10-|------------------------|
|6-6-6-6-6-6-6-6-|--------------------|10-10-10-10-10-10-10-10-|

|--------------------|
|--------------------|
|--------------------|
|10-10-10-10-8-8-8-8-|

Solo pt.1: (2:08)
|----------------|----------------|----------------|----------------|
|----------------|----------------|----------------|----------------|
|5-r-R---R---R---|5-r-R---R---R---|5-r-R---5-r-R---|5-r-5-r-R---R---|
|----------------|----------------|----------------|----------------|

Solo pt.2 (x4)(2:16)
Verse 3 (rest for eight measures {synth verse (x4)})(2:33)
Bridge (rest for four measures)(2:50)
Outro (x4)(2:58)

(3:31)
|----------------|-------------------|-----------------|----------------|
|----------------|-------------------|-----------------|----------------|
|----------------|8---8---8-10-10-10-|-----------------|----------------|
|6---6---6---6---|-------------------|10-*-*-*-*-*-*-*-|*-*-*-*-*-*-*-*-|

|----------------|----------------|----------------|
|----------------|----------------|----------------|
|----------------|----------------|----------------|
|*-*-*-*-*-*-*-*-|*-*-*-*-*-*-\---|----------------|



Rein raus:

Verse & Chorus

|-------------------------------|
|-------------------------------|
|-------------------------------|
|-1-00-1-00-1h3-1-00-1-00-1h3---|
repeat several times (listen to the song)

Bridge (“Tiefer, Tiefer…”

|---------------------|
|---------------------|
|-11111111--333333333-|
|---------------------|

… “sag es, sag es laut” part. )

|------------------------|
|------------------------|
|------------------------|
|--3333333333333333------|

Вот. Я просто щас не имею возможности их сам переписывать, ибо щас не откуда их списывать.

0

94

А по поводу своей табы, то это я ещё подумаю, доработаю и всё такое, просто я ещё не настолько мастер, что бы какие то реальные произведения сочинять. Хотя я попробую чё нить сегодня написать более менее складное и прикольное...

0

95

ДАВАЙ УСПЕХОВ ТЕ, колбасный мотивчег???

0

96

Люди зацените это: http://www.jeanbaudin.com/ охренеете, там 11тиструнная бас-гитара, ваще зверство!
Я когда увидел аж охренел! (для справки: обычно у бас гитары 4-5 струн)

0

97

Der_metzgermeister должен тебя разачеровать, но это не бас-гитара, этот инструмент называется не много поиному, его придумали в Великобритании, а название его как-то типо келд, или килд, очень схоже короч с тем названем как у шатланцев юбки называются. Монера игры на нём как на пианино, то есть не надо оттягивать струны, очень чуствительные поэтому малейшее прикосновение даёт звук, что касается по звучанию, то да его звук как у бас гитары, во всяком случае очень похож. НА сегоднейший день могу сказать такой инструмент используется в попсовой группе "Глюкоза".

0

98

Drum'er, ну написано было что эта басуха, вот я и удивился. Просто я не представляю как можно играть на дуре у которой 11 струн и 24 лада, тут не хватит ни кол-ва пальцев, ни их длинны. А раз уж ты говориш что играть на этом как на пианине, то это разьясняет ситуацию.
А вот мне интересно скока такая может стоить...

0

99

Очень дорого, такой инструмент делают на заказ, и такому обучают только пока в Англии!!!

0

100

Drum'er, в основном этот вопрос к тебе: я тут научился барабанить начало зонне(это когда Тиль должен считать до десяти), как на концерте, так вот во всех табах какие у меня есть пишут что надо фигачить по хай хету педалью, а мне почему то более похожим кажется когда по крэшу вместо него. Так вот как все же правильнее???
И ещё кстати я тут верхние посты почитал, там где про мега бас, так вот как на нём играют: http://www.youtube.com/watch?v=Dec9vj2Hk5g&search=mario bass я смотрел и охренивал! Такому дать обычную гитару, он покруче Сатриани пальцами сыграет!

0

101

Значит так, вот что я тебе могу сказать по этому поводу: никакой педалью работать тут не нужно, более того если ты обращал внимание Шнай играет просто на хете причём правом, что даказыват педаль он не зажимает так как нога занета ритмом на бас-бочке (для справок он использует ДВА ХЕТА всегда на концертах). Так вот я ушёл мальца от вопроса поставленного мне тобой, вступление да и вообще почти вся песня играется на хете, бас-бочке (куда без неё) и конечно на ведущем. Никого крэша ту не нужно, ну ты сам прикинь как звучит КРЭШ этож жёсткий и грубый звук, а нужно тцикальный, а Крэшовский не сочитается с гитарами, а вообще это на твоё усмотрение как хочешь. Или ещё могу посоветовать использовать Райд, хотя Шнай его использует только в о вступление перед началом ритмовки, но всё же не плохо сочитается.

Отредактировано Drum'er (2007-07-04 13:49:08)

0

102

Drum'er написал(а):

Шнай играет просто на хете причём правом

Я так пробовал, тока на той установке на которой я играл он один и слева. Но это не важно. кароче я когда по нему бил он звучал слишком долго и не тем, как мне показалось, звуком каким надо.

Drum'er написал(а):

Никого крэша ту не нужно, ну ты сам прикинь как звучит КРЭШ этож жёсткий и грубый звук

А вот крэш звучит очень по моему в тему, ибо как по нему ударяю, он сперва красиво звякнет, а потом уже типа гула от него идёт, т е глушить не надо, и так неплохо выходит. А вот райд я ваще не знаю что такое:))) На той установке 2 крэша, хай хет и чайна (или ка она там называется:)), это  я про тарелки.

Drum'er написал(а):

почти вся песня играется на хете, бас-бочке (куда без неё) и конечно на ведущем

И в табе было почти так же написано: хэт педалью, бас-бочка и ведущий. Всё это на чистом звучании.

0

103

Der_metzgermeister написал(а):

Но это не важно. кароче я когда по нему бил он звучал слишком долго и не тем, как мне показалось, звуком каким надо.

Этому есть объяснения вопервых пространство (желательно побольше тогда фон не будет про блескивать), воторых звук который ты слышешь на зиписи обработан, втретих прижми ты слегка хет педалью, но не плотно, растояние 1 - 3 мм попробуй.
Что же касается РАЙДа это тарелка обладающая звуком типо Тинь Тинь Тииинь, у него точная ритмовка, в Du riechst so gut  перед словами Риха Шнай на нём бренькает обрати внимание.

0

104

Drum'er написал(а):

Что же касается РАЙДа это тарелка обладающая звуком типо Тинь Тинь Тииинь, у него точная ритмовка, в Du riechst so gut  перед словами Риха Шнай на нём бренькает обрати внимание.

Аааа, это на котором типа маленького дропа он делает? Сперва тихонечко, а потом удар усиливает и так несколько раз. Если это она, то на такой штуке у меня нет возможности попробовать.
Кароче как в следующий раз будет возможность побарабанить, я попробую и прижатыё хет, и все возможные варианты , и скажу что по моему получилось более всего похожим.

Drum'er написал(а):

Этому есть объяснения вопервых пространство (желательно побольше тогда фон не будет про блескивать),

Пространство оставляет желать лучшего, но никакого фона нету, просто такой тихий звук, типа как если ударить по тарелке и пальцем её чутка тронуть. Так и на гитаре можно сделать, флажиолет называется, на драмах не знаю как. Кароче мне просто проще на нём оказалось.
Кстати ещё про глушение хета. У меня же ногу для этого не приспособлены, я думаю у меня не выйдет чуть чуть держать педаль и по бочке бить одновременно... можно чё нить засунуть между педалью и например треногой, что бы педалька держалась в таком слегка нажатом состоянии???

0

105

Der_metzgermeister написал(а):

я думаю у меня не выйдет чуть чуть держать педаль и по бочке бить одновременно... можно чё нить засунуть между педалью и например треногой, что бы педалька держалась в таком слегка нажатом состоянии???

Всё у тебя выйдет, ты когда на бос бочке играешь, что у тебя делает вторая нога, она стоит у тебя на полу, так поставь её на педаль хета, пятка на краю педали а остальная нога на оставшейся педали, это дело зафиксируй и всё  :)

0

106

Drum'er написал(а):

поставь её на педаль хета, пятка на краю педали а остальная нога на оставшейся педали, это дело зафиксируй и всё

ОК, буду учиться :)

0

107

:) Если что ещё требуется ты спрашивай !!!

0

108

Der_metzgermeister к тебе вопрос у меня назрел, ты как гитарист должен мне помочь. Наша команда собирается обновить муз. обарудование и вот мои коллеге по коллктиву просили узнать у тебя о гитарных фирмах. Они хотят купить гитары под маркой "ZOMBIE" что ты можешь сказать насчёт этого производителя, да и вообще посоветую фирмы, где гитары не более 5000 кусков стоимости.

0

109

Drum'er, моё мнение о зомби - дешёвое китайское говно, хотя многие начинающие рокеры и металлисты выбирают именно их. Наверное изза эфектного внешнего вида и низкой стоимости. Я на них не играл, но слышал много жалоб на датчики ихние. Говорят что даже когда заземляешь, всё равно шипят.

Drum'er написал(а):

5000 кусков стоимости.

Чё то ты помоему лажанул. 5000, это пять тысяч рублей, 5000 кусков, это пять миллионов рублей, ибо кусок=1000р.

Но я кароч понял. За 5 кусков ты не купишь ничего хорошего. Разве что ямаху, если я не ошибаюсь, то eg 112, она вроде сама по себе через комбик звучит дерьмово, но если есть проц, или хороший усилок, то просто заземлить её, и будет звучать чуть чуть похуже нормального Ибанеза. Можно даже просто руку на бридже держать, всё равно нормально будет.

ВАще советую накопить хотябы десятку. И взять что нить типа ЛТД М-50 или МН-50, вторая чуть подороже, но у неё бридж флойд роуз (лучшие бриджи на планете!(как у Рихи, Кирка Хаметта, Сатриани и остальных мегагитарюг)).
Ещё могу посоветовать Джексон, модель не помню, но она вроде одна в своём роде, стоит вроде 8000, но звучит очень тяжело, прям создана для дисторшена. Это не значит что она прямо мега вещь, но такую стоимость окупает с бонусами.

Вот всё что я могу сказать по этому поводу, дальше пусть решают сами. Я вот обновляюсь до ЛТД-КХ-602, за 26000. Уже накопил половину :)  Будет у меня бюджетка именной гитары Хаметта, но зато звучит так же.

0

110

Благодарю за информация, они уже начинают копить хыхы

0

111

На что решили то?

0

112

А фирма "Aria" как норм?

0

113

Наконец у меня появилась возможность и я фоткнул свою ПРЕЛЕСТЬ, полюбуйтесь вот это мой рабочий инструмент

Отредактировано Drum'er (2007-07-13 10:35:59)

0

114

Drum'er
Здорово :girl_sight: Вообще, молодцы вы ^_^

0

115

Drum'er, даже никогда о такой не слышал :pardon:

Drum'er написал(а):

полюбуйтесь вот это мой рабочий инструмент

Ух ты, а почём микрофончики? А то у меня у друга нету электроники никакой на установке, интересно узнать скока она стоит...

0

116

Установку я брал с рук за 7000, это "MAPEX", железо "SABIAN" весь коплект 4200, кардан "Axis" от моей старой, а вот микрофончики это нашего лидера из группы

0

117

Ясно

0

118

а есть у кого таблатура на mann gegen mann

0


Вы здесь » Все об Emigrate » Общение без границ » Музыкантам